  0
SECTION
  2
HEADER
  9
$ACADVER
  1
AC1018
  9
$ACADMAINTVER
 70
    39
  9
$DWGCODEPAGE
  3
ANSI_1252
  9
$LASTSAVEDBY
  1
fottrem
  9
$INSBASE
 10
0.0
 20
0.0
 30
0.0
  9
$EXTMIN
 10
16.82027836241149
 20
11.37002792312525
 30
0.0
  9
$EXTMAX
 10
26.32582539454776
 20
21.37002012398509
 30
0.0
  9
$LIMMIN
 10
0.0
 20
0.0
  9
$LIMMAX
 10
12.0
 20
9.0
  9
$ORTHOMODE
 70
     0
  9
$REGENMODE
 70
     1
  9
$FILLMODE
 70
     1
  9
$QTEXTMODE
 70
     0
  9
$MIRRTEXT
 70
     0
  9
$LTSCALE
 40
1.0
  9
$ATTMODE
 70
     1
  9
$TEXTSIZE
 40
0.2
  9
$TRACEWID
 40
0.05
  9
$TEXTSTYLE
  7
Standard
  9
$CLAYER
  8
0
  9
$CELTYPE
  6
ByLayer
  9
$CECOLOR
 62
   256
  9
$CELTSCALE
 40
1.0
  9
$DISPSILH
 70
     0
  9
$DIMSCALE
 40
1.0
  9
$DIMASZ
 40
0.18
  9
$DIMEXO
 40
0.0625
  9
$DIMDLI
 40
0.38
  9
$DIMRND
 40
0.0
  9
$DIMDLE
 40
0.0
  9
$DIMEXE
 40
0.18
  9
$DIMTP
 40
0.0
  9
$DIMTM
 40
0.0
  9
$DIMTXT
 40
0.18
  9
$DIMCEN
 40
0.09
  9
$DIMTSZ
 40
0.0
  9
$DIMTOL
 70
     0
  9
$DIMLIM
 70
     0
  9
$DIMTIH
 70
     1
  9
$DIMTOH
 70
     1
  9
$DIMSE1
 70
     0
  9
$DIMSE2
 70
     0
  9
$DIMTAD
 70
     0
  9
$DIMZIN
 70
     0
  9
$DIMBLK
  1

  9
$DIMASO
 70
     1
  9
$DIMSHO
 70
     1
  9
$DIMPOST
  1

  9
$DIMAPOST
  1

  9
$DIMALT
 70
     0
  9
$DIMALTD
 70
     2
  9
$DIMALTF
 40
25.4
  9
$DIMLFAC
 40
1.0
  9
$DIMTOFL
 70
     0
  9
$DIMTVP
 40
0.0
  9
$DIMTIX
 70
     0
  9
$DIMSOXD
 70
     0
  9
$DIMSAH
 70
     0
  9
$DIMBLK1
  1

  9
$DIMBLK2
  1

  9
$DIMSTYLE
  2
Standard
  9
$DIMCLRD
 70
     0
  9
$DIMCLRE
 70
     0
  9
$DIMCLRT
 70
     0
  9
$DIMTFAC
 40
1.0
  9
$DIMGAP
 40
0.09
  9
$DIMJUST
 70
     0
  9
$DIMSD1
 70
     0
  9
$DIMSD2
 70
     0
  9
$DIMTOLJ
 70
     1
  9
$DIMTZIN
 70
     0
  9
$DIMALTZ
 70
     0
  9
$DIMALTTZ
 70
     0
  9
$DIMUPT
 70
     0
  9
$DIMDEC
 70
     4
  9
$DIMTDEC
 70
     4
  9
$DIMALTU
 70
     2
  9
$DIMALTTD
 70
     2
  9
$DIMTXSTY
  7
Standard
  9
$DIMAUNIT
 70
     0
  9
$DIMADEC
 70
     0
  9
$DIMALTRND
 40
0.0
  9
$DIMAZIN
 70
     0
  9
$DIMDSEP
 70
    46
  9
$DIMATFIT
 70
     3
  9
$DIMFRAC
 70
     0
  9
$DIMLDRBLK
  1

  9
$DIMLUNIT
 70
     2
  9
$DIMLWD
 70
    -2
  9
$DIMLWE
 70
    -2
  9
$DIMTMOVE
 70
     0
  9
$LUNITS
 70
     2
  9
$LUPREC
 70
     4
  9
$SKETCHINC
 40
0.1
  9
$FILLETRAD
 40
0.0
  9
$AUNITS
 70
     0
  9
$AUPREC
 70
     0
  9
$MENU
  1
.
  9
$ELEVATION
 40
0.0
  9
$PELEVATION
 40
0.0
  9
$THICKNESS
 40
0.0
  9
$LIMCHECK
 70
     0
  9
$CHAMFERA
 40
0.0
  9
$CHAMFERB
 40
0.0
  9
$CHAMFERC
 40
0.0
  9
$CHAMFERD
 40
0.0
  9
$SKPOLY
 70
     0
  9
$TDCREATE
 40
2453354.092125822
  9
$TDUCREATE
 40
2453353.717125822
  9
$TDUPDATE
 40
2454792.358088773
  9
$TDUUPDATE
 40
2454791.983088773
  9
$TDINDWG
 40
0.0517939005
  9
$TDUSRTIMER
 40
0.0517586458
  9
$USRTIMER
 70
     1
  9
$ANGBASE
 50
0.0
  9
$ANGDIR
 70
     0
  9
$PDMODE
 70
     0
  9
$PDSIZE
 40
0.0
  9
$PLINEWID
 40
0.0
  9
$SPLFRAME
 70
     0
  9
$SPLINETYPE
 70
     6
  9
$SPLINESEGS
 70
     8
  9
$HANDSEED
  5
1C6
  9
$SURFTAB1
 70
     6
  9
$SURFTAB2
 70
     6
  9
$SURFTYPE
 70
     6
  9
$SURFU
 70
     6
  9
$SURFV
 70
     6
  9
$UCSBASE
  2

  9
$UCSNAME
  2

  9
$UCSORG
 10
0.0
 20
0.0
 30
0.0
  9
$UCSXDIR
 10
1.0
 20
0.0
 30
0.0
  9
$UCSYDIR
 10
0.0
 20
1.0
 30
0.0
  9
$UCSORTHOREF
  2

  9
$UCSORTHOVIEW
 70
     0
  9
$UCSORGTOP
 10
0.0
 20
0.0
 30
0.0
  9
$UCSORGBOTTOM
 10
0.0
 20
0.0
 30
0.0
  9
$UCSORGLEFT
 10
0.0
 20
0.0
 30
0.0
  9
$UCSORGRIGHT
 10
0.0
 20
0.0
 30
0.0
  9
$UCSORGFRONT
 10
0.0
 20
0.0
 30
0.0
  9
$UCSORGBACK
 10
0.0
 20
0.0
 30
0.0
  9
$PUCSBASE
  2

  9
$PUCSNAME
  2

  9
$PUCSORG
 10
0.0
 20
0.0
 30
0.0
  9
$PUCSXDIR
 10
1.0
 20
0.0
 30
0.0
  9
$PUCSYDIR
 10
0.0
 20
1.0
 30
0.0
  9
$PUCSORTHOREF
  2

  9
$PUCSORTHOVIEW
 70
     0
  9
$PUCSORGTOP
 10
0.0
 20
0.0
 30
0.0
  9
$PUCSORGBOTTOM
 10
0.0
 20
0.0
 30
0.0
  9
$PUCSORGLEFT
 10
0.0
 20
0.0
 30
0.0
  9
$PUCSORGRIGHT
 10
0.0
 20
0.0
 30
0.0
  9
$PUCSORGFRONT
 10
0.0
 20
0.0
 30
0.0
  9
$PUCSORGBACK
 10
0.0
 20
0.0
 30
0.0
  9
$USERI1
 70
     0
  9
$USERI2
 70
     0
  9
$USERI3
 70
     0
  9
$USERI4
 70
     0
  9
$USERI5
 70
     0
  9
$USERR1
 40
0.0
  9
$USERR2
 40
0.0
  9
$USERR3
 40
0.0
  9
$USERR4
 40
0.0
  9
$USERR5
 40
0.0
  9
$WORLDVIEW
 70
     1
  9
$SHADEDGE
 70
     3
  9
$SHADEDIF
 70
    70
  9
$TILEMODE
 70
     1
  9
$MAXACTVP
 70
    64
  9
$PINSBASE
 10
0.0
 20
0.0
 30
0.0
  9
$PLIMCHECK
 70
     0
  9
$PEXTMIN
 10
0.0
 20
0.0
 30
0.0
  9
$PEXTMAX
 10
0.0
 20
0.0
 30
0.0
  9
$PLIMMIN
 10
0.0
 20
0.0
  9
$PLIMMAX
 10
12.0
 20
9.0
  9
$UNITMODE
 70
     0
  9
$VISRETAIN
 70
     1
  9
$PLINEGEN
 70
     0
  9
$PSLTSCALE
 70
     1
  9
$TREEDEPTH
 70
  3020
  9
$CMLSTYLE
  2
Standard
  9
$CMLJUST
 70
     0
  9
$CMLSCALE
 40
1.0
  9
$PROXYGRAPHICS
 70
     1
  9
$MEASUREMENT
 70
     0
  9
$CELWEIGHT
370
    -1
  9
$ENDCAPS
280
     0
  9
$JOINSTYLE
280
     0
  9
$LWDISPLAY
290
     0
  9
$INSUNITS
 70
     1
  9
$HYPERLINKBASE
  1

  9
$STYLESHEET
  1

  9
$XEDIT
290
     0
  9
$CEPSNTYPE
380
     0
  9
$PSTYLEMODE
290
     0
  9
$FINGERPRINTGUID
  2
{8BAE0D3F-6380-4E3D-B0D1-267E31F469C1}
  9
$VERSIONGUID
  2
{6F1AD05E-3764-4268-ADD0-261F181DCA83}
  9
$EXTNAMES
290
     1
  9
$PSVPSCALE
 40
0.0
  9
$OLESTARTUP
290
     0
  9
$SORTENTS
280
   127
  9
$INDEXCTL
280
     0
  9
$HIDETEXT
280
     1
  9
$XCLIPFRAME
290
     0
  9
$HALOGAP
280
     0
  9
$OBSCOLOR
 70
   257
  9
$OBSLTYPE
280
     0
  9
$INTERSECTIONDISPLAY
280
     0
  9
$INTERSECTIONCOLOR
 70
   257
  9
$DIMASSOC
280
     2
  9
$PROJECTNAME
  1

  0
ENDSEC
  0
SECTION
  2
CLASSES
  0
CLASS
  1
ACDBDICTIONARYWDFLT
  2
AcDbDictionaryWithDefault
  3
ObjectDBX Classes
 90
        0
 91
        3
280
     0
281
     0
  0
CLASS
  1
ACDBPLACEHOLDER
  2
AcDbPlaceHolder
  3
ObjectDBX Classes
 90
        0
 91
        1
280
     0
281
     0
  0
CLASS
  1
LAYOUT
  2
AcDbLayout
  3
ObjectDBX Classes
 90
        0
 91
        1
280
     0
281
     0
  0
CLASS
  1
DICTIONARYVAR
  2
AcDbDictionaryVar
  3
ObjectDBX Classes
 90
        0
 91
        3
280
     0
281
     0
  0
CLASS
  1
TABLESTYLE
  2
AcDbTableStyle
  3
ObjectDBX Classes
 90
     2047
 91
        3
280
     0
281
     0
  0
ENDSEC
  0
SECTION
  2
TABLES
  0
TABLE
  2
VPORT
  5
8
330
0
100
AcDbSymbolTable
 70
     2
  0
VPORT
  5
97
330
8
100
AcDbSymbolTableRecord
100
AcDbViewportTableRecord
  2
*Active
 70
     0
 10
0.0
 20
0.0
 11
1.0
 21
1.0
 12
26.9947371992808
 22
16.36465448322982
 13
0.0
 23
0.0
 14
0.5
 24
0.5
 15
0.5
 25
0.5
 16
0.0
 26
0.0
 36
1.0
 17
0.0
 27
0.0
 37
0.0
 40
17.49392254705042
 41
2.031468531468532
 42
50.0
 43
0.0
 44
0.0
 50
0.0
 51
0.0
 71
    16
 72
  1000
 73
     1
 74
     1
 75
     0
 76
     0
 77
     0
 78
     0
281
     0
 65
     0
110
0.0
120
0.0
130
0.0
111
1.0
121
0.0
131
0.0
112
0.0
122
1.0
132
0.0
 79
     0
146
0.0
  0
ENDTAB
  0
TABLE
  2
LTYPE
  5
5
330
0
100
AcDbSymbolTable
 70
     1
  0
LTYPE
  5
14
330
5
100
AcDbSymbolTableRecord
100
AcDbLinetypeTableRecord
  2
ByBlock
 70
     0
  3

 72
    65
 73
     0
 40
0.0
  0
LTYPE
  5
15
330
5
100
AcDbSymbolTableRecord
100
AcDbLinetypeTableRecord
  2
ByLayer
 70
     0
  3

 72
    65
 73
     0
 40
0.0
  0
LTYPE
  5
16
330
5
100
AcDbSymbolTableRecord
100
AcDbLinetypeTableRecord
  2
Continuous
 70
     0
  3
Solid line
 72
    65
 73
     0
 40
0.0
  0
ENDTAB
  0
TABLE
  2
LAYER
  5
2
330
0
100
AcDbSymbolTable
 70
     2
  0
LAYER
  5
10
330
2
100
AcDbSymbolTableRecord
100
AcDbLayerTableRecord
  2
0
 70
     0
 62
     7
  6
Continuous
370
    -3
390
F
  0
LAYER
  5
EB
330
2
100
AcDbSymbolTableRecord
100
AcDbLayerTableRecord
  2
DEFPOINTS
 70
     0
 62
     7
  6
Continuous
290
     0
370
    -3
390
F
  0
ENDTAB
  0
TABLE
  2
STYLE
  5
3
330
0
100
AcDbSymbolTable
 70
     1
  0
STYLE
  5
11
330
3
100
AcDbSymbolTableRecord
100
AcDbTextStyleTableRecord
  2
Standard
 70
     0
 40
0.0
 41
1.0
 50
0.0
 71
     0
 42
0.2
  3
txt
  4

  0
ENDTAB
  0
TABLE
  2
VIEW
  5
6
330
0
100
AcDbSymbolTable
 70
     0
  0
ENDTAB
  0
TABLE
  2
UCS
  5
7
330
0
100
AcDbSymbolTable
 70
     0
  0
ENDTAB
  0
TABLE
  2
APPID
  5
9
330
0
100
AcDbSymbolTable
 70
     1
  0
APPID
  5
12
330
9
100
AcDbSymbolTableRecord
100
AcDbRegAppTableRecord
  2
ACAD
 70
     0
  0
ENDTAB
  0
TABLE
  2
DIMSTYLE
  5
A
330
0
100
AcDbSymbolTable
 70
     1
100
AcDbDimStyleTable
  0
DIMSTYLE
105
27
330
A
100
AcDbSymbolTableRecord
100
AcDbDimStyleTableRecord
  2
Standard
 70
     0
340
11
  0
ENDTAB
  0
TABLE
  2
BLOCK_RECORD
  5
1
330
0
100
AcDbSymbolTable
 70
     1
  0
BLOCK_RECORD
  5
1F
330
1
100
AcDbSymbolTableRecord
100
AcDbBlockTableRecord
  2
*Model_Space
340
22
  0
BLOCK_RECORD
  5
73
330
1
100
AcDbSymbolTableRecord
100
AcDbBlockTableRecord
  2
*Paper_Space
340
74
  0
BLOCK_RECORD
  5
9B
330
1
100
AcDbSymbolTableRecord
100
AcDbBlockTableRecord
  2
*Paper_Space0
340
9C
  0
ENDTAB
  0
ENDSEC
  0
SECTION
  2
BLOCKS
  0
BLOCK
  5
20
330
1F
100
AcDbEntity
  8
0
100
AcDbBlockBegin
  2
*Model_Space
 70
     0
 71
     0
 10
0.0
 20
0.0
 30
0.0
  3
*Model_Space
  1

  0
ENDBLK
  5
21
330
1F
100
AcDbEntity
  8
0
100
AcDbBlockEnd
  0
BLOCK
  5
75
330
73
100
AcDbEntity
 67
     1
  8
0
100
AcDbBlockBegin
  2
*Paper_Space
 70
     0
 71
     0
 10
0.0
 20
0.0
 30
0.0
  3
*Paper_Space
  1

  0
ENDBLK
  5
76
330
73
100
AcDbEntity
 67
     1
  8
0
100
AcDbBlockEnd
  0
BLOCK
  5
1C4
330
9B
100
AcDbEntity
  8
0
100
AcDbBlockBegin
  2
*Paper_Space0
 70
     0
 71
     0
 10
0.0
 20
0.0
 30
0.0
  3
*Paper_Space0
  1

  0
ENDBLK
  5
1C5
330
9B
100
AcDbEntity
  8
0
100
AcDbBlockEnd
  0
ENDSEC
  0
SECTION
  2
ENTITIES
  0
LINE
  5
9D
330
1F
100
AcDbEntity
  8
0
  6
Continuous
 62
     7
370
    15
100
AcDbLine
 10
18.69517283047986
 20
11.37002792312525
 30
0.0
 11
24.45093092647989
 21
11.37002792312525
 31
0.0
  0
LINE
  5
9E
330
1F
100
AcDbEntity
  8
0
  6
Continuous
 62
     7
370
    15
100
AcDbLine
 10
24.45093092647989
 20
11.37002792312525
 30
0.0
 11
24.45093092647989
 21
16.61724660791682
 31
0.0
  0
LINE
  5
9F
330
1F
100
AcDbEntity
  8
0
  6
Continuous
 62
     7
370
    15
100
AcDbLine
 10
24.45093092647989
 20
16.61724660791682
 30
0.0
 11
26.32582539454776
 21
16.61724660791724
 31
0.0
  0
LINE
  5
A0
330
1F
100
AcDbEntity
  8
0
  6
Continuous
 62
     7
370
    15
100
AcDbLine
 10
26.32582539454776
 20
16.61724660791724
 30
0.0
 11
21.57305187847991
 21
21.37002012398509
 31
0.0
  0
LINE
  5
A1
330
1F
100
AcDbEntity
  8
0
  6
Continuous
 62
     7
370
    15
100
AcDbLine
 10
21.57305187847991
 20
21.37002012398509
 30
0.0
 11
16.82027836241149
 21
16.61724660791682
 31
0.0
  0
LINE
  5
A2
330
1F
100
AcDbEntity
  8
0
  6
Continuous
 62
     7
370
    15
100
AcDbLine
 10
16.82027836241149
 20
16.61724660791682
 30
0.0
 11
18.69517283047989
 21
16.61724660791682
 31
0.0
  0
LINE
  5
A3
330
1F
100
AcDbEntity
  8
0
  6
Continuous
 62
     7
370
    15
100
AcDbLine
 10
18.69517283047989
 20
16.61724660791682
 30
0.0
 11
18.69517283047986
 21
11.37002792312525
 31
0.0
  0
LINE
  5
FE
330
1F
100
AcDbEntity
  8
0
100
AcDbLine
 10
24.41190539532994
 20
11.37002792312525
 30
0.0
 11
24.45093092647989
 21
11.4090534542752
 31
0.0
  0
LINE
  5
FF
330
1F
100
AcDbEntity
  8
0
100
AcDbLine
 10
24.33695207652417
 20
11.37002792312525
 30
0.0
 11
24.45093092647989
 21
11.48400677308097
 31
0.0
  0
LINE
  5
100
330
1F
100
AcDbEntity
  8
0
100
AcDbLine
 10
24.2619987577184
 20
11.37002792312525
 30
0.0
 11
24.45093092647989
 21
11.55896009188674
 31
0.0
  0
LINE
  5
101
330
1F
100
AcDbEntity
  8
0
100
AcDbLine
 10
24.18704543891263
 20
11.37002792312525
 30
0.0
 11
24.45093092647989
 21
11.63391341069252
 31
0.0
  0
LINE
  5
102
330
1F
100
AcDbEntity
  8
0
100
AcDbLine
 10
24.11209212010685
 20
11.37002792312525
 30
0.0
 11
24.45093092647989
 21
11.70886672949829
 31
0.0
  0
LINE
  5
103
330
1F
100
AcDbEntity
  8
0
100
AcDbLine
 10
24.03713880130108
 20
11.37002792312525
 30
0.0
 11
24.45093092647989
 21
11.78382004830406
 31
0.0
  0
LINE
  5
104
330
1F
100
AcDbEntity
  8
0
100
AcDbLine
 10
23.9621854824953
 20
11.37002792312525
 30
0.0
 11
24.45093092647989
 21
11.85877336710984
 31
0.0
  0
LINE
  5
105
330
1F
100
AcDbEntity
  8
0
100
AcDbLine
 10
23.88723216368953
 20
11.37002792312525
 30
0.0
 11
24.45093092647989
 21
11.93372668591561
 31
0.0
  0
LINE
  5
106
330
1F
100
AcDbEntity
  8
0
100
AcDbLine
 10
23.81227884488376
 20
11.37002792312525
 30
0.0
 11
24.45093092647989
 21
12.00868000472138
 31
0.0
  0
LINE
  5
107
330
1F
100
AcDbEntity
  8
0
100
AcDbLine
 10
23.73732552607798
 20
11.37002792312525
 30
0.0
 11
24.45093092647989
 21
12.08363332352716
 31
0.0
  0
LINE
  5
108
330
1F
100
AcDbEntity
  8
0
100
AcDbLine
 10
23.66237220727221
 20
11.37002792312525
 30
0.0
 11
24.45093092647989
 21
12.15858664233293
 31
0.0
  0
LINE
  5
109
330
1F
100
AcDbEntity
  8
0
100
AcDbLine
 10
23.58741888846643
 20
11.37002792312525
 30
0.0
 11
24.45093092647989
 21
12.23353996113871
 31
0.0
  0
LINE
  5
10A
330
1F
100
AcDbEntity
  8
0
100
AcDbLine
 10
23.51246556966066
 20
11.37002792312525
 30
0.0
 11
24.45093092647989
 21
12.30849327994448
 31
0.0
  0
LINE
  5
10B
330
1F
100
AcDbEntity
  8
0
100
AcDbLine
 10
23.43751225085489
 20
11.37002792312525
 30
0.0
 11
24.45093092647989
 21
12.38344659875025
 31
0.0
  0
LINE
  5
10C
330
1F
100
AcDbEntity
  8
0
100
AcDbLine
 10
23.36255893204912
 20
11.37002792312525
 30
0.0
 11
24.45093092647989
 21
12.45839991755603
 31
0.0
  0
LINE
  5
10D
330
1F
100
AcDbEntity
  8
0
100
AcDbLine
 10
23.28760561324334
 20
11.37002792312525
 30
0.0
 11
24.45093092647989
 21
12.5333532363618
 31
0.0
  0
LINE
  5
10E
330
1F
100
AcDbEntity
  8
0
100
AcDbLine
 10
23.21265229443756
 20
11.37002792312525
 30
0.0
 11
24.45093092647989
 21
12.60830655516757
 31
0.0
  0
LINE
  5
10F
330
1F
100
AcDbEntity
  8
0
100
AcDbLine
 10
23.13769897563179
 20
11.37002792312525
 30
0.0
 11
24.45093092647989
 21
12.68325987397335
 31
0.0
  0
LINE
  5
110
330
1F
100
AcDbEntity
  8
0
100
AcDbLine
 10
23.06274565682602
 20
11.37002792312525
 30
0.0
 11
24.45093092647989
 21
12.75821319277912
 31
0.0
  0
LINE
  5
111
330
1F
100
AcDbEntity
  8
0
100
AcDbLine
 10
22.98779233802025
 20
11.37002792312525
 30
0.0
 11
24.45093092647989
 21
12.83316651158489
 31
0.0
  0
LINE
  5
112
330
1F
100
AcDbEntity
  8
0
100
AcDbLine
 10
22.91283901921447
 20
11.37002792312525
 30
0.0
 11
24.45093092647989
 21
12.90811983039067
 31
0.0
  0
LINE
  5
113
330
1F
100
AcDbEntity
  8
0
100
AcDbLine
 10
22.8378857004087
 20
11.37002792312525
 30
0.0
 11
24.45093092647989
 21
12.98307314919644
 31
0.0
  0
LINE
  5
114
330
1F
100
AcDbEntity
  8
0
100
AcDbLine
 10
22.76293238160293
 20
11.37002792312525
 30
0.0
 11
24.45093092647989
 21
13.05802646800221
 31
0.0
  0
LINE
  5
115
330
1F
100
AcDbEntity
  8
0
100
AcDbLine
 10
22.68797906279715
 20
11.37002792312525
 30
0.0
 11
24.45093092647989
 21
13.13297978680799
 31
0.0
  0
LINE
  5
116
330
1F
100
AcDbEntity
  8
0
100
AcDbLine
 10
22.61302574399138
 20
11.37002792312525
 30
0.0
 11
24.45093092647989
 21
13.20793310561376
 31
0.0
  0
LINE
  5
117
330
1F
100
AcDbEntity
  8
0
100
AcDbLine
 10
22.5380724251856
 20
11.37002792312525
 30
0.0
 11
24.45093092647989
 21
13.28288642441954
 31
0.0
  0
LINE
  5
118
330
1F
100
AcDbEntity
  8
0
100
AcDbLine
 10
22.46311910637983
 20
11.37002792312525
 30
0.0
 11
24.45093092647989
 21
13.35783974322531
 31
0.0
  0
LINE
  5
119
330
1F
100
AcDbEntity
  8
0
100
AcDbLine
 10
22.38816578757406
 20
11.37002792312525
 30
0.0
 11
24.45093092647989
 21
13.43279306203108
 31
0.0
  0
LINE
  5
11A
330
1F
100
AcDbEntity
  8
0
100
AcDbLine
 10
22.31321246876828
 20
11.37002792312525
 30
0.0
 11
24.45093092647989
 21
13.50774638083685
 31
0.0
  0
LINE
  5
11B
330
1F
100
AcDbEntity
  8
0
100
AcDbLine
 10
22.23825914996251
 20
11.37002792312525
 30
0.0
 11
24.45093092647989
 21
13.58269969964263
 31
0.0
  0
LINE
  5
11C
330
1F
100
AcDbEntity
  8
0
100
AcDbLine
 10
22.16330583115674
 20
11.37002792312525
 30
0.0
 11
24.45093092647989
 21
13.6576530184484
 31
0.0
  0
LINE
  5
11D
330
1F
100
AcDbEntity
  8
0
100
AcDbLine
 10
22.08835251235096
 20
11.37002792312525
 30
0.0
 11
24.45093092647989
 21
13.73260633725418
 31
0.0
  0
LINE
  5
11E
330
1F
100
AcDbEntity
  8
0
100
AcDbLine
 10
22.01339919354519
 20
11.37002792312525
 30
0.0
 11
24.45093092647989
 21
13.80755965605995
 31
0.0
  0
LINE
  5
11F
330
1F
100
AcDbEntity
  8
0
100
AcDbLine
 10
21.93844587473941
 20
11.37002792312525
 30
0.0
 11
24.45093092647989
 21
13.88251297486572
 31
0.0
  0
LINE
  5
120
330
1F
100
AcDbEntity
  8
0
100
AcDbLine
 10
21.86349255593364
 20
11.37002792312525
 30
0.0
 11
24.45093092647989
 21
13.9574662936715
 31
0.0
  0
LINE
  5
121
330
1F
100
AcDbEntity
  8
0
100
AcDbLine
 10
21.78853923712787
 20
11.37002792312525
 30
0.0
 11
24.45093092647989
 21
14.03241961247727
 31
0.0
  0
LINE
  5
122
330
1F
100
AcDbEntity
  8
0
100
AcDbLine
 10
21.7135859183221
 20
11.37002792312525
 30
0.0
 11
24.45093092647989
 21
14.10737293128304
 31
0.0
  0
LINE
  5
123
330
1F
100
AcDbEntity
  8
0
100
AcDbLine
 10
21.63863259951632
 20
11.37002792312525
 30
0.0
 11
24.45093092647989
 21
14.18232625008882
 31
0.0
  0
LINE
  5
124
330
1F
100
AcDbEntity
  8
0
100
AcDbLine
 10
21.56367928071055
 20
11.37002792312525
 30
0.0
 11
24.45093092647989
 21
14.25727956889459
 31
0.0
  0
LINE
  5
125
330
1F
100
AcDbEntity
  8
0
100
AcDbLine
 10
21.48872596190477
 20
11.37002792312525
 30
0.0
 11
24.45093092647989
 21
14.33223288770037
 31
0.0
  0
LINE
  5
126
330
1F
100
AcDbEntity
  8
0
100
AcDbLine
 10
21.413772643099
 20
11.37002792312525
 30
0.0
 11
24.45093092647989
 21
14.40718620650614
 31
0.0
  0
LINE
  5
127
330
1F
100
AcDbEntity
  8
0
100
AcDbLine
 10
21.33881932429323
 20
11.37002792312525
 30
0.0
 11
24.45093092647989
 21
14.48213952531191
 31
0.0
  0
LINE
  5
128
330
1F
100
AcDbEntity
  8
0
100
AcDbLine
 10
21.26386600548745
 20
11.37002792312525
 30
0.0
 11
24.45093092647989
 21
14.55709284411769
 31
0.0
  0
LINE
  5
129
330
1F
100
AcDbEntity
  8
0
100
AcDbLine
 10
21.18891268668168
 20
11.37002792312525
 30
0.0
 11
24.45093092647989
 21
14.63204616292346
 31
0.0
  0
LINE
  5
12A
330
1F
100
AcDbEntity
  8
0
100
AcDbLine
 10
21.1139593678759
 20
11.37002792312525
 30
0.0
 11
24.45093092647989
 21
14.70699948172923
 31
0.0
  0
LINE
  5
12B
330
1F
100
AcDbEntity
  8
0
100
AcDbLine
 10
21.03900604907013
 20
11.37002792312525
 30
0.0
 11
24.45093092647989
 21
14.78195280053501
 31
0.0
  0
LINE
  5
12C
330
1F
100
AcDbEntity
  8
0
100
AcDbLine
 10
26.28622473386212
 20
16.61724660791723
 30
0.0
 11
26.30602506420494
 21
16.63704693826006
 31
0.0
  0
LINE
  5
12D
330
1F
100
AcDbEntity
  8
0
100
AcDbLine
 10
20.96405273026436
 20
11.37002792312525
 30
0.0
 11
24.45093092647989
 21
14.85690611934078
 31
0.0
  0
LINE
  5
12E
330
1F
100
AcDbEntity
  8
0
100
AcDbLine
 10
26.21127141505632
 20
16.61724660791721
 30
0.0
 11
26.26854840480205
 21
16.67452359766294
 31
0.0
  0
LINE
  5
12F
330
1F
100
AcDbEntity
  8
0
100
AcDbLine
 10
20.88909941145859
 20
11.37002792312525
 30
0.0
 11
24.45093092647989
 21
14.93185943814655
 31
0.0
  0
LINE
  5
130
330
1F
100
AcDbEntity
  8
0
100
AcDbLine
 10
26.13631809625054
 20
16.6172466079172
 30
0.0
 11
26.23107174539917
 21
16.71200025706583
 31
0.0
  0
LINE
  5
131
330
1F
100
AcDbEntity
  8
0
100
AcDbLine
 10
20.81414609265281
 20
11.37002792312525
 30
0.0
 11
24.45093092647989
 21
15.00681275695233
 31
0.0
  0
LINE
  5
132
330
1F
100
AcDbEntity
  8
0
100
AcDbLine
 10
26.06136477744474
 20
16.61724660791718
 30
0.0
 11
26.19359508599628
 21
16.74947691646872
 31
0.0
  0
LINE
  5
133
330
1F
100
AcDbEntity
  8
0
100
AcDbLine
 10
20.73919277384704
 20
11.37002792312525
 30
0.0
 11
24.45093092647989
 21
15.0817660757581
 31
0.0
  0
LINE
  5
134
330
1F
100
AcDbEntity
  8
0
100
AcDbLine
 10
25.98641145863895
 20
16.61724660791716
 30
0.0
 11
26.15611842659339
 21
16.7869535758716
 31
0.0
  0
LINE
  5
135
330
1F
100
AcDbEntity
  8
0
100
AcDbLine
 10
20.66423945504126
 20
11.37002792312525
 30
0.0
 11
24.45093092647989
 21
15.15671939456387
 31
0.0
  0
LINE
  5
136
330
1F
100
AcDbEntity
  8
0
100
AcDbLine
 10
25.91145813983317
 20
16.61724660791715
 30
0.0
 11
26.11864176719051
 21
16.82443023527449
 31
0.0
  0
LINE
  5
137
330
1F
100
AcDbEntity
  8
0
100
AcDbLine
 10
20.58928613623549
 20
11.37002792312525
 30
0.0
 11
24.4509309264799
 21
15.23167271336965
 31
0.0
  0
LINE
  5
138
330
1F
100
AcDbEntity
  8
0
100
AcDbLine
 10
25.83650482102738
 20
16.61724660791713
 30
0.0
 11
26.08116510778762
 21
16.86190689467738
 31
0.0
  0
LINE
  5
139
330
1F
100
AcDbEntity
  8
0
100
AcDbLine
 10
20.51433281742972
 20
11.37002792312525
 30
0.0
 11
24.45093092647989
 21
15.30662603217542
 31
0.0
  0
LINE
  5
13A
330
1F
100
AcDbEntity
  8
0
100
AcDbLine
 10
25.76155150222158
 20
16.61724660791711
 30
0.0
 11
26.04368844838473
 21
16.89938355408026
 31
0.0
  0
LINE
  5
13B
330
1F
100
AcDbEntity
  8
0
100
AcDbLine
 10
20.43937949862395
 20
11.37002792312525
 30
0.0
 11
24.45093092647989
 21
15.3815793509812
 31
0.0
  0
LINE
  5
13C
330
1F
100
AcDbEntity
  8
0
100
AcDbLine
 10
25.68659818341579
 20
16.6172466079171
 30
0.0
 11
26.00621178898185
 21
16.93686021348315
 31
0.0
  0
LINE
  5
13D
330
1F
100
AcDbEntity
  8
0
100
AcDbLine
 10
20.36442617981817
 20
11.37002792312525
 30
0.0
 11
24.45093092647989
 21
15.45653266978697
 31
0.0
  0
LINE
  5
13E
330
1F
100
AcDbEntity
  8
0
100
AcDbLine
 10
25.61164486461
 20
16.61724660791708
 30
0.0
 11
25.96873512957896
 21
16.97433687288604
 31
0.0
  0
LINE
  5
13F
330
1F
100
AcDbEntity
  8
0
100
AcDbLine
 10
20.2894728610124
 20
11.37002792312525
 30
0.0
 11
24.45093092647989
 21
15.53148598859274
 31
0.0
  0
LINE
  5
140
330
1F
100
AcDbEntity
  8
0
100
AcDbLine
 10
25.53669154580421
 20
16.61724660791706
 30
0.0
 11
25.93125847017607
 21
17.01181353228893
 31
0.0
  0
LINE
  5
141
330
1F
100
AcDbEntity
  8
0
100
AcDbLine
 10
20.21451954220662
 20
11.37002792312525
 30
0.0
 11
24.45093092647989
 21
15.60643930739852
 31
0.0
  0
LINE
  5
142
330
1F
100
AcDbEntity
  8
0
100
AcDbLine
 10
25.46173822699842
 20
16.61724660791705
 30
0.0
 11
25.89378181077318
 21
17.04929019169181
 31
0.0
  0
LINE
  5
143
330
1F
100
AcDbEntity
  8
0
100
AcDbLine
 10
20.13956622340085
 20
11.37002792312525
 30
0.0
 11
24.45093092647989
 21
15.68139262620429
 31
0.0
  0
LINE
  5
144
330
1F
100
AcDbEntity
  8
0
100
AcDbLine
 10
25.38678490819263
 20
16.61724660791703
 30
0.0
 11
25.8563051513703
 21
17.0867668510947
 31
0.0
  0
LINE
  5
145
330
1F
100
AcDbEntity
  8
0
100
AcDbLine
 10
20.06461290459507
 20
11.37002792312525
 30
0.0
 11
24.45093092647989
 21
15.75634594501006
 31
0.0
  0
LINE
  5
146
330
1F
100
AcDbEntity
  8
0
100
AcDbLine
 10
25.31183158938684
 20
16.61724660791701
 30
0.0
 11
25.81882849196741
 21
17.12424351049759
 31
0.0
  0
LINE
  5
147
330
1F
100
AcDbEntity
  8
0
100
AcDbLine
 10
19.9896595857893
 20
11.37002792312525
 30
0.0
 11
24.45093092647989
 21
15.83129926381584
 31
0.0
  0
LINE
  5
148
330
1F
100
AcDbEntity
  8
0
100
AcDbLine
 10
25.23687827058104
 20
16.61724660791699
 30
0.0
 11
25.78135183256453
 21
17.16172016990047
 31
0.0
  0
LINE
  5
149
330
1F
100
AcDbEntity
  8
0
100
AcDbLine
 10
19.91470626698353
 20
11.37002792312525
 30
0.0
 11
24.45093092647989
 21
15.90625258262161
 31
0.0
  0
LINE
  5
14A
330
1F
100
AcDbEntity
  8
0
100
AcDbLine
 10
25.16192495177526
 20
16.61724660791698
 30
0.0
 11
25.74387517316164
 21
17.19919682930336
 31
0.0
  0
LINE
  5
14B
330
1F
100
AcDbEntity
  8
0
100
AcDbLine
 10
19.83975294817775
 20
11.37002792312525
 30
0.0
 11
24.45093092647989
 21
15.98120590142739
 31
0.0
  0
LINE
  5
14C
330
1F
100
AcDbEntity
  8
0
100
AcDbLine
 10
25.08697163296947
 20
16.61724660791696
 30
0.0
 11
25.70639851375875
 21
17.23667348870624
 31
0.0
  0
LINE
  5
14D
330
1F
100
AcDbEntity
  8
0
100
AcDbLine
 10
19.76479962937198
 20
11.37002792312525
 30
0.0
 11
24.45093092647989
 21
16.05615922023316
 31
0.0
  0
LINE
  5
14E
330
1F
100
AcDbEntity
  8
0
100
AcDbLine
 10
25.01201831416368
 20
16.61724660791694
 30
0.0
 11
25.66892185435587
 21
17.27415014810913
 31
0.0
  0
LINE
  5
14F
330
1F
100
AcDbEntity
  8
0
100
AcDbLine
 10
19.68984631056621
 20
11.37002792312525
 30
0.0
 11
24.45093092647989
 21
16.13111253903893
 31
0.0
  0
LINE
  5
150
330
1F
100
AcDbEntity
  8
0
100
AcDbLine
 10
24.93706499535789
 20
16.61724660791693
 30
0.0
 11
25.63144519495298
 21
17.31162680751202
 31
0.0
  0
LINE
  5
151
330
1F
100
AcDbEntity
  8
0
100
AcDbLine
 10
19.61489299176043
 20
11.37002792312525
 30
0.0
 11
24.45093092647989
 21
16.20606585784471
 31
0.0
  0
LINE
  5
152
330
1F
100
AcDbEntity
  8
0
100
AcDbLine
 10
24.8621116765521
 20
16.61724660791691
 30
0.0
 11
25.59396853555009
 21
17.34910346691491
 31
0.0
  0
LINE
  5
153
330
1F
100
AcDbEntity
  8
0
100
AcDbLine
 10
19.53993967295466
 20
11.37002792312525
 30
0.0
 11
24.45093092647989
 21
16.28101917665048
 31
0.0
  0
LINE
  5
154
330
1F
100
AcDbEntity
  8
0
100
AcDbLine
 10
24.7871583577463
 20
16.61724660791689
 30
0.0
 11
25.55649187614721
 21
17.38658012631779
 31
0.0
  0
LINE
  5
155
330
1F
100
AcDbEntity
  8
0
100
AcDbLine
 10
19.46498635414888
 20
11.37002792312525
 30
0.0
 11
24.45093092647989
 21
16.35597249545625
 31
0.0
  0
LINE
  5
156
330
1F
100
AcDbEntity
  8
0
100
AcDbLine
 10
24.71220503894051
 20
16.61724660791687
 30
0.0
 11
25.51901521674432
 21
17.42405678572068
 31
0.0
  0
LINE
  5
157
330
1F
100
AcDbEntity
  8
0
100
AcDbLine
 10
19.39003303534311
 20
11.37002792312525
 30
0.0
 11
24.45093092647989
 21
16.43092581426203
 31
0.0
  0
LINE
  5
158
330
1F
100
AcDbEntity
  8
0
100
AcDbLine
 10
24.63725172013472
 20
16.61724660791686
 30
0.0
 11
25.48153855734143
 21
17.46153344512357
 31
0.0
  0
LINE
  5
159
330
1F
100
AcDbEntity
  8
0
100
AcDbLine
 10
19.31507971653734
 20
11.37002792312525
 30
0.0
 11
24.45093092647989
 21
16.5058791330678
 31
0.0
  0
LINE
  5
15A
330
1F
100
AcDbEntity
  8
0
100
AcDbLine
 10
24.56229840132893
 20
16.61724660791684
 30
0.0
 11
25.44406189793855
 21
17.49901010452646
 31
0.0
  0
LINE
  5
15B
330
1F
100
AcDbEntity
  8
0
100
AcDbLine
 10
19.24012639773157
 20
11.37002792312525
 30
0.0
 11
24.45093092647989
 21
16.58083245187357
 31
0.0
  0
LINE
  5
15C
330
1F
100
AcDbEntity
  8
0
100
AcDbLine
 10
24.48734508252314
 20
16.61724660791682
 30
0.0
 11
25.40658523853566
 21
17.53648676392934
 31
0.0
  0
LINE
  5
15D
330
1F
100
AcDbEntity
  8
0
100
AcDbLine
 10
19.16517307892579
 20
11.37002792312525
 30
0.0
 11
25.36910857913277
 21
17.57396342333223
 31
0.0
  0
LINE
  5
15E
330
1F
100
AcDbEntity
  8
0
100
AcDbLine
 10
19.09021976012002
 20
11.37002792312525
 30
0.0
 11
25.33163191972988
 21
17.61144008273511
 31
0.0
  0
LINE
  5
15F
330
1F
100
AcDbEntity
  8
0
100
AcDbLine
 10
19.01526644131424
 20
11.37002792312525
 30
0.0
 11
25.294155260327
 21
17.648916742138
 31
0.0
  0
LINE
  5
160
330
1F
100
AcDbEntity
  8
0
100
AcDbLine
 10
18.94031312250847
 20
11.37002792312525
 30
0.0
 11
25.25667860092411
 21
17.68639340154089
 31
0.0
  0
LINE
  5
161
330
1F
100
AcDbEntity
  8
0
100
AcDbLine
 10
18.8653598037027
 20
11.37002792312525
 30
0.0
 11
25.21920194152122
 21
17.72387006094377
 31
0.0
  0
LINE
  5
162
330
1F
100
AcDbEntity
  8
0
100
AcDbLine
 10
18.79040648489692
 20
11.37002792312525
 30
0.0
 11
25.18172528211834
 21
17.76134672034666
 31
0.0
  0
LINE
  5
163
330
1F
100
AcDbEntity
  8
0
100
AcDbLine
 10
18.71545316609115
 20
11.37002792312525
 30
0.0
 11
25.14424862271545
 21
17.79882337974955
 31
0.0
  0
LINE
  5
164
330
1F
100
AcDbEntity
  8
0
100
AcDbLine
 10
18.69517283047986
 20
11.42470090631973
 30
0.0
 11
25.10677196331256
 21
17.83630003915243
 31
0.0
  0
LINE
  5
165
330
1F
100
AcDbEntity
  8
0
100
AcDbLine
 10
18.69517283047986
 20
11.4996542251255
 30
0.0
 11
25.06929530390968
 21
17.87377669855532
 31
0.0
  0
LINE
  5
166
330
1F
100
AcDbEntity
  8
0
100
AcDbLine
 10
18.69517283047986
 20
11.57460754393128
 30
0.0
 11
25.03181864450679
 21
17.91125335795821
 31
0.0
  0
LINE
  5
167
330
1F
100
AcDbEntity
  8
0
100
AcDbLine
 10
18.69517283047986
 20
11.64956086273705
 30
0.0
 11
24.9943419851039
 21
17.94873001736109
 31
0.0
  0
LINE
  5
168
330
1F
100
AcDbEntity
  8
0
100
AcDbLine
 10
18.69517283047986
 20
11.72451418154282
 30
0.0
 11
24.95686532570102
 21
17.98620667676398
 31
0.0
  0
LINE
  5
169
330
1F
100
AcDbEntity
  8
0
100
AcDbLine
 10
18.69517283047986
 20
11.7994675003486
 30
0.0
 11
24.91938866629813
 21
18.02368333616687
 31
0.0
  0
LINE
  5
16A
330
1F
100
AcDbEntity
  8
0
100
AcDbLine
 10
18.69517283047986
 20
11.87442081915437
 30
0.0
 11
24.88191200689525
 21
18.06115999556976
 31
0.0
  0
LINE
  5
16B
330
1F
100
AcDbEntity
  8
0
100
AcDbLine
 10
18.69517283047986
 20
11.94937413796015
 30
0.0
 11
24.84443534749235
 21
18.09863665497264
 31
0.0
  0
LINE
  5
16C
330
1F
100
AcDbEntity
  8
0
100
AcDbLine
 10
18.69517283047986
 20
12.02432745676592
 30
0.0
 11
24.80695868808947
 21
18.13611331437553
 31
0.0
  0
LINE
  5
16D
330
1F
100
AcDbEntity
  8
0
100
AcDbLine
 10
18.69517283047986
 20
12.0992807755717
 30
0.0
 11
24.76948202868658
 21
18.17358997377841
 31
0.0
  0
LINE
  5
16E
330
1F
100
AcDbEntity
  8
0
100
AcDbLine
 10
18.69517283047986
 20
12.17423409437747
 30
0.0
 11
24.73200536928369
 21
18.2110666331813
 31
0.0
  0
LINE
  5
16F
330
1F
100
AcDbEntity
  8
0
100
AcDbLine
 10
18.69517283047986
 20
12.24918741318324
 30
0.0
 11
24.69452870988081
 21
18.24854329258419
 31
0.0
  0
LINE
  5
170
330
1F
100
AcDbEntity
  8
0
100
AcDbLine
 10
18.69517283047986
 20
12.32414073198902
 30
0.0
 11
24.65705205047792
 21
18.28601995198708
 31
0.0
  0
LINE
  5
171
330
1F
100
AcDbEntity
  8
0
100
AcDbLine
 10
18.69517283047986
 20
12.39909405079479
 30
0.0
 11
24.61957539107504
 21
18.32349661138997
 31
0.0
  0
LINE
  5
172
330
1F
100
AcDbEntity
  8
0
100
AcDbLine
 10
18.69517283047986
 20
12.47404736960056
 30
0.0
 11
24.58209873167215
 21
18.36097327079285
 31
0.0
  0
LINE
  5
173
330
1F
100
AcDbEntity
  8
0
100
AcDbLine
 10
18.69517283047986
 20
12.54900068840634
 30
0.0
 11
24.54462207226926
 21
18.39844993019573
 31
0.0
  0
LINE
  5
174
330
1F
100
AcDbEntity
  8
0
100
AcDbLine
 10
18.69517283047986
 20
12.62395400721211
 30
0.0
 11
24.50714541286638
 21
18.43592658959862
 31
0.0
  0
LINE
  5
175
330
1F
100
AcDbEntity
  8
0
100
AcDbLine
 10
18.69517283047987
 20
12.69890732601789
 30
0.0
 11
24.46966875346349
 21
18.47340324900151
 31
0.0
  0
LINE
  5
176
330
1F
100
AcDbEntity
  8
0
100
AcDbLine
 10
18.69517283047987
 20
12.77386064482366
 30
0.0
 11
24.4321920940606
 21
18.5108799084044
 31
0.0
  0
LINE
  5
177
330
1F
100
AcDbEntity
  8
0
100
AcDbLine
 10
18.69517283047987
 20
12.84881396362944
 30
0.0
 11
24.39471543465771
 21
18.54835656780728
 31
0.0
  0
LINE
  5
178
330
1F
100
AcDbEntity
  8
0
100
AcDbLine
 10
18.69517283047986
 20
12.92376728243521
 30
0.0
 11
24.35723877525483
 21
18.58583322721017
 31
0.0
  0
LINE
  5
179
330
1F
100
AcDbEntity
  8
0
100
AcDbLine
 10
18.69517283047987
 20
12.99872060124098
 30
0.0
 11
24.31976211585194
 21
18.62330988661306
 31
0.0
  0
LINE
  5
17A
330
1F
100
AcDbEntity
  8
0
100
AcDbLine
 10
18.69517283047987
 20
13.07367392004676
 30
0.0
 11
24.28228545644905
 21
18.66078654601595
 31
0.0
  0
LINE
  5
17B
330
1F
100
AcDbEntity
  8
0
100
AcDbLine
 10
18.69517283047987
 20
13.14862723885253
 30
0.0
 11
24.24480879704616
 21
18.69826320541883
 31
0.0
  0
LINE
  5
17C
330
1F
100
AcDbEntity
  8
0
100
AcDbLine
 10
18.69517283047987
 20
13.22358055765831
 30
0.0
 11
24.20733213764328
 21
18.73573986482171
 31
0.0
  0
LINE
  5
17D
330
1F
100
AcDbEntity
  8
0
100
AcDbLine
 10
18.69517283047987
 20
13.29853387646408
 30
0.0
 11
24.16985547824039
 21
18.7732165242246
 31
0.0
  0
LINE
  5
17E
330
1F
100
AcDbEntity
  8
0
100
AcDbLine
 10
18.69517283047987
 20
13.37348719526985
 30
0.0
 11
24.1323788188375
 21
18.81069318362749
 31
0.0
  0
LINE
  5
17F
330
1F
100
AcDbEntity
  8
0
100
AcDbLine
 10
18.69517283047987
 20
13.44844051407563
 30
0.0
 11
24.09490215943462
 21
18.84816984303038
 31
0.0
  0
LINE
  5
180
330
1F
100
AcDbEntity
  8
0
100
AcDbLine
 10
18.69517283047987
 20
13.5233938328814
 30
0.0
 11
24.05742550003173
 21
18.88564650243326
 31
0.0
  0
LINE
  5
181
330
1F
100
AcDbEntity
  8
0
100
AcDbLine
 10
18.69517283047987
 20
13.59834715168718
 30
0.0
 11
24.01994884062885
 21
18.92312316183615
 31
0.0
  0
LINE
  5
182
330
1F
100
AcDbEntity
  8
0
100
AcDbLine
 10
18.69517283047987
 20
13.67330047049295
 30
0.0
 11
23.98247218122595
 21
18.96059982123904
 31
0.0
  0
LINE
  5
183
330
1F
100
AcDbEntity
  8
0
100
AcDbLine
 10
18.69517283047987
 20
13.74825378929872
 30
0.0
 11
23.94499552182307
 21
18.99807648064192
 31
0.0
  0
LINE
  5
184
330
1F
100
AcDbEntity
  8
0
100
AcDbLine
 10
18.69517283047987
 20
13.8232071081045
 30
0.0
 11
23.90751886242019
 21
19.03555314004481
 31
0.0
  0
LINE
  5
185
330
1F
100
AcDbEntity
  8
0
100
AcDbLine
 10
18.69517283047987
 20
13.89816042691027
 30
0.0
 11
23.8700422030173
 21
19.0730297994477
 31
0.0
  0
LINE
  5
186
330
1F
100
AcDbEntity
  8
0
100
AcDbLine
 10
18.69517283047987
 20
13.97311374571605
 30
0.0
 11
23.83256554361441
 21
19.11050645885059
 31
0.0
  0
LINE
  5
187
330
1F
100
AcDbEntity
  8
0
100
AcDbLine
 10
18.69517283047987
 20
14.04806706452182
 30
0.0
 11
23.79508888421152
 21
19.14798311825347
 31
0.0
  0
LINE
  5
188
330
1F
100
AcDbEntity
  8
0
100
AcDbLine
 10
18.69517283047987
 20
14.1230203833276
 30
0.0
 11
23.75761222480864
 21
19.18545977765636
 31
0.0
  0
LINE
  5
189
330
1F
100
AcDbEntity
  8
0
100
AcDbLine
 10
18.69517283047987
 20
14.19797370213337
 30
0.0
 11
23.72013556540575
 21
19.22293643705924
 31
0.0
  0
LINE
  5
18A
330
1F
100
AcDbEntity
  8
0
100
AcDbLine
 10
18.69517283047988
 20
14.27292702093914
 30
0.0
 11
23.68265890600286
 21
19.26041309646213
 31
0.0
  0
LINE
  5
18B
330
1F
100
AcDbEntity
  8
0
100
AcDbLine
 10
18.69517283047987
 20
14.34788033974492
 30
0.0
 11
23.64518224659998
 21
19.29788975586502
 31
0.0
  0
LINE
  5
18C
330
1F
100
AcDbEntity
  8
0
100
AcDbLine
 10
18.69517283047988
 20
14.42283365855069
 30
0.0
 11
23.60770558719709
 21
19.33536641526791
 31
0.0
  0
LINE
  5
18D
330
1F
100
AcDbEntity
  8
0
100
AcDbLine
 10
18.69517283047988
 20
14.49778697735647
 30
0.0
 11
23.5702289277942
 21
19.37284307467079
 31
0.0
  0
LINE
  5
18E
330
1F
100
AcDbEntity
  8
0
100
AcDbLine
 10
18.69517283047988
 20
14.57274029616224
 30
0.0
 11
23.53275226839131
 21
19.41031973407368
 31
0.0
  0
LINE
  5
18F
330
1F
100
AcDbEntity
  8
0
100
AcDbLine
 10
18.69517283047988
 20
14.64769361496801
 30
0.0
 11
23.49527560898843
 21
19.44779639347657
 31
0.0
  0
LINE
  5
190
330
1F
100
AcDbEntity
  8
0
100
AcDbLine
 10
18.69517283047988
 20
14.72264693377379
 30
0.0
 11
23.45779894958554
 21
19.48527305287945
 31
0.0
  0
LINE
  5
191
330
1F
100
AcDbEntity
  8
0
100
AcDbLine
 10
18.69517283047988
 20
14.79760025257956
 30
0.0
 11
23.42032229018266
 21
19.52274971228234
 31
0.0
  0
LINE
  5
192
330
1F
100
AcDbEntity
  8
0
100
AcDbLine
 10
18.69517283047988
 20
14.87255357138534
 30
0.0
 11
23.38284563077977
 21
19.56022637168523
 31
0.0
  0
LINE
  5
193
330
1F
100
AcDbEntity
  8
0
100
AcDbLine
 10
18.69517283047988
 20
14.94750689019111
 30
0.0
 11
23.34536897137688
 21
19.59770303108812
 31
0.0
  0
LINE
  5
194
330
1F
100
AcDbEntity
  8
0
100
AcDbLine
 10
18.69517283047988
 20
15.02246020899689
 30
0.0
 11
23.30789231197399
 21
19.635179690491
 31
0.0
  0
LINE
  5
195
330
1F
100
AcDbEntity
  8
0
100
AcDbLine
 10
18.69517283047988
 20
15.09741352780266
 30
0.0
 11
23.27041565257111
 21
19.67265634989389
 31
0.0
  0
LINE
  5
196
330
1F
100
AcDbEntity
  8
0
100
AcDbLine
 10
18.69517283047988
 20
15.17236684660844
 30
0.0
 11
23.23293899316822
 21
19.71013300929677
 31
0.0
  0
LINE
  5
197
330
1F
100
AcDbEntity
  8
0
100
AcDbLine
 10
18.69517283047988
 20
15.24732016541421
 30
0.0
 11
23.19546233376533
 21
19.74760966869966
 31
0.0
  0
LINE
  5
198
330
1F
100
AcDbEntity
  8
0
100
AcDbLine
 10
18.69517283047988
 20
15.32227348421998
 30
0.0
 11
23.15798567436245
 21
19.78508632810255
 31
0.0
  0
LINE
  5
199
330
1F
100
AcDbEntity
  8
0
100
AcDbLine
 10
18.69517283047988
 20
15.39722680302576
 30
0.0
 11
23.12050901495956
 21
19.82256298750544
 31
0.0
  0
LINE
  5
19A
330
1F
100
AcDbEntity
  8
0
100
AcDbLine
 10
18.69517283047988
 20
15.47218012183153
 30
0.0
 11
23.08303235555667
 21
19.86003964690832
 31
0.0
  0
LINE
  5
19B
330
1F
100
AcDbEntity
  8
0
100
AcDbLine
 10
18.69517283047988
 20
15.54713344063731
 30
0.0
 11
23.04555569615378
 21
19.89751630631121
 31
0.0
  0
LINE
  5
19C
330
1F
100
AcDbEntity
  8
0
100
AcDbLine
 10
18.69517283047988
 20
15.62208675944309
 30
0.0
 11
23.0080790367509
 21
19.93499296571409
 31
0.0
  0
LINE
  5
19D
330
1F
100
AcDbEntity
  8
0
100
AcDbLine
 10
18.69517283047989
 20
15.69704007824886
 30
0.0
 11
22.97060237734801
 21
19.97246962511699
 31
0.0
  0
LINE
  5
19E
330
1F
100
AcDbEntity
  8
0
100
AcDbLine
 10
18.69517283047988
 20
15.77199339705463
 30
0.0
 11
22.93312571794512
 21
20.00994628451987
 31
0.0
  0
LINE
  5
19F
330
1F
100
AcDbEntity
  8
0
100
AcDbLine
 10
18.69517283047988
 20
15.84694671586041
 30
0.0
 11
22.89564905854224
 21
20.04742294392276
 31
0.0
  0
LINE
  5
1A0
330
1F
100
AcDbEntity
  8
0
100
AcDbLine
 10
18.69517283047988
 20
15.92190003466618
 30
0.0
 11
22.85817239913935
 21
20.08489960332565
 31
0.0
  0
LINE
  5
1A1
330
1F
100
AcDbEntity
  8
0
100
AcDbLine
 10
18.69517283047989
 20
15.99685335347196
 30
0.0
 11
22.82069573973646
 21
20.12237626272853
 31
0.0
  0
LINE
  5
1A2
330
1F
100
AcDbEntity
  8
0
100
AcDbLine
 10
18.69517283047989
 20
16.07180667227773
 30
0.0
 11
22.78321908033358
 21
20.15985292213142
 31
0.0
  0
LINE
  5
1A3
330
1F
100
AcDbEntity
  8
0
100
AcDbLine
 10
18.69517283047989
 20
16.14675999108351
 30
0.0
 11
22.74574242093069
 21
20.19732958153431
 31
0.0
  0
LINE
  5
1A4
330
1F
100
AcDbEntity
  8
0
100
AcDbLine
 10
18.69517283047989
 20
16.22171330988928
 30
0.0
 11
22.70826576152781
 21
20.2348062409372
 31
0.0
  0
LINE
  5
1A5
330
1F
100
AcDbEntity
  8
0
100
AcDbLine
 10
18.69517283047989
 20
16.29666662869505
 30
0.0
 11
22.67078910212491
 21
20.27228290034008
 31
0.0
  0
LINE
  5
1A6
330
1F
100
AcDbEntity
  8
0
100
AcDbLine
 10
18.69517283047989
 20
16.37161994750083
 30
0.0
 11
22.63331244272203
 21
20.30975955974297
 31
0.0
  0
LINE
  5
1A7
330
1F
100
AcDbEntity
  8
0
100
AcDbLine
 10
18.69517283047989
 20
16.4465732663066
 30
0.0
 11
22.59583578331914
 21
20.34723621914586
 31
0.0
  0
LINE
  5
1A8
330
1F
100
AcDbEntity
  8
0
100
AcDbLine
 10
18.69517283047989
 20
16.52152658511238
 30
0.0
 11
22.55835912391625
 21
20.38471287854874
 31
0.0
  0
LINE
  5
1A9
330
1F
100
AcDbEntity
  8
0
100
AcDbLine
 10
18.69517283047989
 20
16.59647990391815
 30
0.0
 11
22.52088246451336
 21
20.42218953795163
 31
0.0
  0
LINE
  5
1AA
330
1F
100
AcDbEntity
  8
0
100
AcDbLine
 10
18.64098621567278
 20
16.61724660791682
 30
0.0
 11
22.48340580511048
 21
20.45966619735452
 31
0.0
  0
LINE
  5
1AB
330
1F
100
AcDbEntity
  8
0
100
AcDbLine
 10
18.566032896867
 20
16.61724660791682
 30
0.0
 11
22.44592914570759
 21
20.4971428567574
 31
0.0
  0
LINE
  5
1AC
330
1F
100
AcDbEntity
  8
0
100
AcDbLine
 10
18.49107957806123
 20
16.61724660791682
 30
0.0
 11
22.40845248630471
 21
20.53461951616029
 31
0.0
  0
LINE
  5
1AD
330
1F
100
AcDbEntity
  8
0
100
AcDbLine
 10
18.41612625925546
 20
16.61724660791682
 30
0.0
 11
22.37097582690182
 21
20.57209617556318
 31
0.0
  0
LINE
  5
1AE
330
1F
100
AcDbEntity
  8
0
100
AcDbLine
 10
18.34117294044968
 20
16.61724660791681
 30
0.0
 11
22.33349916749894
 21
20.60957283496607
 31
0.0
  0
LINE
  5
1AF
330
1F
100
AcDbEntity
  8
0
100
AcDbLine
 10
18.26621962164391
 20
16.61724660791682
 30
0.0
 11
22.29602250809604
 21
20.64704949436895
 31
0.0
  0
LINE
  5
1B0
330
1F
100
AcDbEntity
  8
0
100
AcDbLine
 10
18.19126630283813
 20
16.61724660791682
 30
0.0
 11
22.25854584869316
 21
20.68452615377184
 31
0.0
  0
LINE
  5
1B1
330
1F
100
AcDbEntity
  8
0
100
AcDbLine
 10
18.11631298403236
 20
16.61724660791682
 30
0.0
 11
22.22106918929027
 21
20.72200281317473
 31
0.0
  0
LINE
  5
1B2
330
1F
100
AcDbEntity
  8
0
100
AcDbLine
 10
18.04135966522659
 20
16.61724660791682
 30
0.0
 11
22.18359252988738
 21
20.75947947257761
 31
0.0
  0
LINE
  5
1B3
330
1F
100
AcDbEntity
  8
0
100
AcDbLine
 10
17.96640634642081
 20
16.61724660791681
 30
0.0
 11
22.1461158704845
 21
20.7969561319805
 31
0.0
  0
LINE
  5
1B4
330
1F
100
AcDbEntity
  8
0
100
AcDbLine
 10
17.89145302761504
 20
16.61724660791682
 30
0.0
 11
22.10863921108161
 21
20.83443279138339
 31
0.0
  0
LINE
  5
1B5
330
1F
100
AcDbEntity
  8
0
100
AcDbLine
 10
17.81649970880926
 20
16.61724660791682
 30
0.0
 11
22.07116255167872
 21
20.87190945078627
 31
0.0
  0
LINE
  5
1B6
330
1F
100
AcDbEntity
  8
0
100
AcDbLine
 10
17.74154639000349
 20
16.61724660791682
 30
0.0
 11
22.03368589227584
 21
20.90938611018916
 31
0.0
  0
LINE
  5
1B7
330
1F
100
AcDbEntity
  8
0
100
AcDbLine
 10
17.66659307119772
 20
16.61724660791682
 30
0.0
 11
21.99620923287295
 21
20.94686276959205
 31
0.0
  0
LINE
  5
1B8
330
1F
100
AcDbEntity
  8
0
100
AcDbLine
 10
17.59163975239194
 20
16.61724660791681
 30
0.0
 11
21.95873257347006
 21
20.98433942899494
 31
0.0
  0
LINE
  5
1B9
330
1F
100
AcDbEntity
  8
0
100
AcDbLine
 10
17.51668643358617
 20
16.61724660791682
 30
0.0
 11
21.92125591406717
 21
21.02181608839782
 31
0.0
  0
LINE
  5
1BA
330
1F
100
AcDbEntity
  8
0
100
AcDbLine
 10
17.44173311478039
 20
16.61724660791682
 30
0.0
 11
21.88377925466429
 21
21.05929274780071
 31
0.0
  0
LINE
  5
1BB
330
1F
100
AcDbEntity
  8
0
100
AcDbLine
 10
17.36677979597462
 20
16.61724660791682
 30
0.0
 11
21.8463025952614
 21
21.0967694072036
 31
0.0
  0
LINE
  5
1BC
330
1F
100
AcDbEntity
  8
0
100
AcDbLine
 10
17.29182647716885
 20
16.61724660791682
 30
0.0
 11
21.80882593585851
 21
21.13424606660649
 31
0.0
  0
LINE
  5
1BD
330
1F
100
AcDbEntity
  8
0
100
AcDbLine
 10
17.21687315836307
 20
16.61724660791682
 30
0.0
 11
21.77134927645563
 21
21.17172272600937
 31
0.0
  0
LINE
  5
1BE
330
1F
100
AcDbEntity
  8
0
100
AcDbLine
 10
17.1419198395573
 20
16.61724660791682
 30
0.0
 11
21.73387261705274
 21
21.20919938541225
 31
0.0
  0
LINE
  5
1BF
330
1F
100
AcDbEntity
  8
0
100
AcDbLine
 10
17.06696652075152
 20
16.61724660791681
 30
0.0
 11
21.69639595764985
 21
21.24667604481514
 31
0.0
  0
LINE
  5
1C0
330
1F
100
AcDbEntity
  8
0
100
AcDbLine
 10
16.99201320194575
 20
16.61724660791681
 30
0.0
 11
21.65891929824697
 21
21.28415270421803
 31
0.0
  0
LINE
  5
1C1
330
1F
100
AcDbEntity
  8
0
100
AcDbLine
 10
16.91705988313997
 20
16.61724660791682
 30
0.0
 11
21.62144263884408
 21
21.32162936362091
 31
0.0
  0
LINE
  5
1C2
330
1F
100
AcDbEntity
  8
0
100
AcDbLine
 10
16.8421065643342
 20
16.61724660791682
 30
0.0
 11
21.58396597944119
 21
21.3591060230238
 31
0.0
  0
ENDSEC
  0
SECTION
  2
OBJECTS
  0
DICTIONARY
  5
C
330
0
100
AcDbDictionary
281
     1
  3
ACAD_COLOR
350
6C
  3
ACAD_GROUP
350
D
  3
ACAD_LAYOUT
350
1A
  3
ACAD_MATERIAL
350
6B
  3
ACAD_MLINESTYLE
350
17
  3
ACAD_PLOTSETTINGS
350
19
  3
ACAD_PLOTSTYLENAME
350
E
  3
ACAD_TABLESTYLE
350
92
  3
AcDbVariableDictionary
350
59
  0
DICTIONARY
  5
6C
102
{ACAD_REACTORS
330
C
102
}
330
C
100
AcDbDictionary
281
     1
  0
DICTIONARY
  5
D
102
{ACAD_REACTORS
330
C
102
}
330
C
100
AcDbDictionary
281
     1
  0
DICTIONARY
  5
1A
102
{ACAD_REACTORS
330
C
102
}
330
C
100
AcDbDictionary
281
     1
  3
Layout1
350
74
  3
Layout2
350
9C
  3
Model
350
22
  0
DICTIONARY
  5
6B
102
{ACAD_REACTORS
330
C
102
}
330
C
100
AcDbDictionary
281
     1
  0
DICTIONARY
  5
17
102
{ACAD_REACTORS
330
C
102
}
330
C
100
AcDbDictionary
281
     1
  3
Standard
350
18
  0
DICTIONARY
  5
19
102
{ACAD_REACTORS
330
C
102
}
330
C
100
AcDbDictionary
281
     1
  0
ACDBDICTIONARYWDFLT
  5
E
102
{ACAD_REACTORS
330
C
102
}
330
C
100
AcDbDictionary
281
     1
  3
Normal
350
F
100
AcDbDictionaryWithDefault
340
F
  0
DICTIONARY
  5
92
102
{ACAD_REACTORS
330
C
102
}
330
C
100
AcDbDictionary
281
     1
  0
DICTIONARY
  5
59
102
{ACAD_REACTORS
330
C
102
}
330
C
100
AcDbDictionary
281
     1
  3
CTABLESTYLE
350
98
  0
LAYOUT
  5
74
102
{ACAD_REACTORS
330
1A
102
}
330
1A
100
AcDbPlotSettings
  1

  2
\\ADSCCNDC1\hq601xrx1
  4

  6

 40
0.0
 41
0.0
 42
0.0
 43
0.0
 44
0.0
 45
0.0
 46
0.0
 47
0.0
 48
0.0
 49
0.0
140
0.0
141
0.0
142
1.0
143
1.0
 70
   688
 72
     0
 73
     0
 74
     5
  7

 75
    16
 76
     0
 77
     2
 78
   300
147
1.0
148
0.0
149
0.0
100
AcDbLayout
  1
Layout1
 70
     1
 71
     1
 10
0.0
 20
0.0
 11
12.0
 21
9.0
 12
0.0
 22
0.0
 32
0.0
 14
0.0
 24
0.0
 34
0.0
 15
0.0
 25
0.0
 35
0.0
146
0.0
 13
0.0
 23
0.0
 33
0.0
 16
1.0
 26
0.0
 36
0.0
 17
0.0
 27
1.0
 37
0.0
 76
     0
330
73
  0
LAYOUT
  5
9C
102
{ACAD_REACTORS
330
1A
102
}
330
1A
100
AcDbPlotSettings
  1

  2
None
  4

  6

 40
0.0
 41
0.0
 42
0.0
 43
0.0
 44
0.0
 45
0.0
 46
0.0
 47
0.0
 48
0.0
 49
0.0
140
0.0
141
0.0
142
1.0
143
1.0
 70
   688
 72
     0
 73
     0
 74
     5
  7

 75
    16
 76
     0
 77
     2
 78
   300
147
1.0
148
0.0
149
0.0
100
AcDbLayout
  1
Layout2
 70
     1
 71
     2
 10
0.0
 20
0.0
 11
12.0
 21
9.0
 12
0.0
 22
0.0
 32
0.0
 14
1.000000000000000E+20
 24
1.000000000000000E+20
 34
1.000000000000000E+20
 15
-1.000000000000000E+20
 25
-1.000000000000000E+20
 35
-1.000000000000000E+20
146
0.0
 13
0.0
 23
0.0
 33
0.0
 16
1.0
 26
0.0
 36
0.0
 17
0.0
 27
1.0
 37
0.0
 76
     0
330
9B
  0
LAYOUT
  5
22
102
{ACAD_REACTORS
330
1A
102
}
330
1A
100
AcDbPlotSettings
  1

  2
none_device
  4
Letter_(8.50_x_11.00_Inches)
  6

 40
6.349999904632568
 41
6.349999904632568
 42
6.350006103515625
 43
6.350006103515625
 44
215.8999938964844
 45
279.3999938964844
 46
0.0
 47
0.0
 48
0.0
 49
0.0
140
0.0
141
0.0
142
1.0
143
3.560208697428377
 70
 11952
 72
     0
 73
     1
 74
     0
  7

 75
     0
 76
     0
 77
     2
 78
   300
147
0.28088241027059
148
0.1311165230791651
149
0.096403374003771
100
AcDbLayout
  1
Model
 70
     1
 71
     0
 10
0.0
 20
0.0
 11
12.0
 21
9.0
 12
0.0
 22
0.0
 32
0.0
 14
16.82027836241149
 24
11.37002792312525
 34
0.0
 15
26.32582539454776
 25
21.37002012398509
 35
0.0
146
0.0
 13
0.0
 23
0.0
 33
0.0
 16
1.0
 26
0.0
 36
0.0
 17
0.0
 27
1.0
 37
0.0
 76
     0
330
1F
  0
MLINESTYLE
  5
18
102
{ACAD_REACTORS
330
17
102
}
330
17
100
AcDbMlineStyle
  2
Standard
 70
     0
  3

 62
   256
 51
90.0
 52
90.0
 71
     2
 49
0.5
 62
   256
  6
BYLAYER
 49
-0.5
 62
   256
  6
BYLAYER
  0
ACDBPLACEHOLDER
  5
F
102
{ACAD_REACTORS
330
E
102
}
330
E
  0
DICTIONARYVAR
  5
98
102
{ACAD_REACTORS
330
59
102
}
330
59
100
DictionaryVariables
280
     0
  1
STANDARD
  0
ENDSEC
  0
EOF
